Learn Easy Guitar Songs

Learn Easy Guitar Songs

If you are wondering how to learn easy guitar songs, you just need to practice standard chord combinations thoroughly. This article centers on learning easy songs to play on the guitar.
The versatility of guitar playing can be explored to the fullest if you have a willingness to invent different techniques for creating different sounds. - Stephen Rampur

For beginner guitarists, it is suggested to take up the acoustic guitar instead of jumping onto the electric guitar directly. This is because acoustic guitar playing creates a base to play the electric guitar. Many people choose to learn easy guitar songs directly without first getting to know the fundamentals of the skill. In order to learn acoustic guitar songs, you first need to take guitar lessons on how to read guitar tabs and practice relative chord combinations exhaustively.

It is important to know that once you are aware of and practice the guitar chord combinations, you can easily pick up any easy guitar song for beginners and start playing. Remember that for every song, there is a specific combination of set chords. Most guitar songs have these combinations of simple chords. However, variations in standard chord combinations can vary from song to song, which is an advanced guitar lesson altogether. In the following, the basic guitar chords are mentioned which you can refer to and play alternative chords of some easy acoustic guitar songs. The lines resemble the strings, and the numbers indicate which fret you are supposed to place the fretting hand's fingertips.

Easy Guitar Song Tabs for Beginners

'A' Major Chord

e-----0----------------------
B----2-----------------------
G----2-----------------------
D----2-----------------------
A----0-----------------------
E----0-----------------------

'B' Major Chord

e-----2-----------------------
B----4-----------------------
G----4-----------------------
D----4-----------------------
A----2-----------------------
E----X-----------------------

'C' Major Chord

e-----0-----------------------
B----1-----------------------
G----0-----------------------
D----2-----------------------
A----3-----------------------
E----X-----------------------

'D' Major Chord

e-----2-----------------------
B----3-----------------------
G----2-----------------------
D----0-----------------------
A----X-----------------------
E----X-----------------------

'E' Major Chord

e-----0-----------------------
B----0------------------------
G----1------------------------
D----2------------------------
A----2------------------------
E----0------------------------

'F' Major Chord

e-----1-----------------------
B----1-----------------------
G----2-----------------------
D----3-----------------------
A----3-----------------------
E----X-----------------------

'G' Major Chord

e------3-----------------------
B-----0-----------------------
G-----0-----------------------
D-----0-----------------------
A-----2-----------------------
E-----3-----------------------

Let us move on to major chord combinations which you have to use on simple guitar songs.

Easy Guitar Chord Combinations for Beginners

Now, referring to the aforementioned major chords, you can play chord combinations shown in the following. Note that some songs even have minor chords to be played, but they can be learned and included after you are acquainted with these important major chords.

A - D - E - A

G - C - D - G

D - G - A - D

E - A - B - E

C - F - G - C

You can have a look at some easy guitar songs for beginners in the following part.

Easy Guitar Songs to Learn
  • Brown Girl in the Ring - Boney M.
  • Country Roads - John Denver
  • Easy Come, Easy Go - George Strait
  • Every Rose Has Its Thorn - Poison
  • Hero - Enrique Iglesias
  • Knocking on Heaven's Door - Bob Dylan
  • Love Will Keep Us Alive - Eagles
  • Tears in Heaven - Eric Clapton
  • Wake Me Up When September Ends - Green Day
  • When You Say Nothing At All - Ronan Keating
You can even choose classic tunes and poems such as stated below.
  • Baa Baa Black Sheep
  • Happy Birthday
  • Hickory Dickory Dock
  • Mary Had a Little Lamb
  • The Alphabet Song (ABCDEFG)
  • Twinkle Twinkle Little Star
  • We Wish You a Merry Christmas
You can also do well with trying to play Christmas carols such as:
  • Feliz Navidad
  • Hark The Herald Angels Sing
  • Jingle Bells, Jingle Bells
  • Joy To The World
  • Rudolph The Red-Nosed Reindeer
  • Silent Night, Holy Night
  • We Wish You a Merry Christmas
These are just a few easy guitar songs recommended. After you are fine with these songs on the guitar, you can try out some electric guitar songs as well. Those wanting to learn playing songs should necessarily practice the chords and their combinations to become a skilled guitar player.
Advertisement