Guitar Fingerpicking Lessons

The music that touches the heart, is often said to be the best music. Guitar fingerpicking lessons, will help you to play the acoustic guitar like finger stylists, and will also help you to sharpen your musical abilities.
The mesmerizing melodies by Derek Trucks of Allman Brothers Band are enough to make a person hold his or her breath for at least a thimbleful. Similar is the case of Andy Mckee and Don Ross, who make their guitars sing out the music that touches our soul. These finger stylists have made it a point to touch the hearts of audience, with one technique that has been used since the existence of guitars and fingerpicking. The following is a small and brief guide that takes you through some basic fingerpicking tips.

Guitar Fingerpicking Basics

Before beginning with any tabs or lessons, let us have a look at the advantage of guitar fingerpicking. The first and foremost advantage of playing the strings with your fingers is that it enables you to feel the string and its sound. You are able to control the note that you are playing quite easily and there is a natural warmth in such a note. Fingerpicking every singular note also enables you to put your own emotion into the composition.

On the whole, the fingerpicking enables you to bring about a soft and delicate tone that warmly touches the heart of your listener. Though quite convenient and easy to use a pick, on the other hand, produces sharp and artificial notes that are not controlled by the human touch. Try it out for yourself. First take a pick and strike the first three notes of the C major scale. Then strike these notes again with a soft finger. Then play the same notes again with a pick. You will realize that the notes that have been plucked with a finger are very, very touching and soulful.

Guitar Fingerpicking for Beginners

The primary exercise that will help you get a gist of the technique goes as follows...

As all of know that a guitar has 6 strings that are tuned to E-A-D-G-B-E. While finger styling these strings, you will have to follow guitar fingerpicking patterns. In such patterns, the E and A string are played with the thumb while the remaining four strings are played with the fore finger, middle finger and little finger respectively. Here's a small exercise.

e[------------0-----------------------------------0------------------------]
B[---------------0-----------------------------0--------------------------]
G[------------------0-----------------------0-----------------------------]
D[---------------------0-----------------0--------------------------------]
A[------------------------0-----------0-----------------------------------]
E[---------------------------0-----0---------------------------------------]

e[---0-----0----------------------------------------------------------------]
B[-----0------0------0-----------------------------------------------------]
G[----------------0------0------0------------------------------------------]
D[---------------------------0-------0-------0-----------------------------]
A[----------------------------------------0------0-------0-----------------]
E[----------------------------------------------------0------------------]

e[--0-------------------------------0----0----0----0----0--------------------]
B[--------0-------------------------0-------------------------------------]
G[-------------0--------------------------0-------------------------------]
D[-------------------0-------------------------0------------------------]
A[-------------------------0------------------------0---------------------]
E[--0-----0----0----0-----0-----------------------------0----------------------]

These exercises will basically help you to improve coordination within your five fingers. While playing with a fingerpicking, you will need to train your fingers to follow the brain's instructions. Practicing with all fingers will definitely prove to be helpful. In addition to that, maintaining consistency in such a practice works wonders when you are training your fingers.

Guitar Fingerpicking Tabs

You may find several different composed tabs on the Internet. However, it is first advisable to train with some chords. Fingerpicking all major and minor chords and gradually promoting yourself to play some 7th scales and even arpeggios, is a great way to start off. The next part is to practice the scales. If you are planning upon composing and writing your own music then scales are the best guitar fingerpicking lessons. You may also hunt for the tabs of fingerpicking legends, such as Mason Williams or Don Ross. There are several flamenco exercises and compositions that you may find on the Internet for this musical instrument. There is however, a great necessity to develop one's sense and understanding about the sound of acoustic guitar.

Once you start taking guitar lessons, you will come to the conclusion that playing the acoustic guitar with fingerpicking styles is not just managing to play a few songs, it's a journey; of understanding, learning and self-realization.
Advertisement